ISO-10303-21;
HEADER;
FILE_DESCRIPTION (( 'STEP AP203' ),
    '1' );
FILE_NAME ('QB-CTZQWP-12.7-894-M.STEP',
    '2020-12-24T01:49:53',
    ( '' ),
    ( '' ),
    'SwSTEP 2.0',
    'SolidWorks 2020',
    '' );
FILE_SCHEMA (( 'CONFIG_CONTROL_DESIGN' ));
ENDSEC;

DATA;
#1 = CIRCLE ( 'NONE', #13, 12.69999999999999929 ) ;
#2 = ORIENTED_EDGE ( 'NONE', *, *, #142, .T. ) ;
#3 =( NAMED_UNIT ( * ) PLANE_ANGLE_UNIT ( ) SI_UNIT ( $, .RADIAN. ) );
#4 = LOCAL_TIME ( 9, 49, 53.00000000000000000, #302 ) ;
#5 = ORIENTED_EDGE ( 'NONE', *, *, #318, .F. ) ;
#6 = AXIS2_PLACEMENT_3D ( 'NONE', #95, #303, #67 ) ;
#7 = ORIENTED_EDGE ( 'NONE', *, *, #85, .T. ) ;
#8 = ORIENTED_EDGE ( 'NONE', *, *, #85, .F. ) ;
#9 = CARTESIAN_POINT ( 'NONE',  ( -1.500000000000000444, 6.349999999999999645, 0.000000000000000000 ) ) ;
#10 = CIRCLE ( 'NONE', #6, 6.349999999999999645 ) ;
#11 = CARTESIAN_POINT ( 'NONE',  ( -3.000000000000000000, 6.349999999999999645, 0.000000000000000000 ) ) ;
#12 = PERSON_AND_ORGANIZATION_ROLE ( 'design_supplier' ) ;
#13 = AXIS2_PLACEMENT_3D ( 'NONE', #150, #53, #184 ) ;
#14 = CARTESIAN_POINT ( 'NONE',  ( 1.500000000000000888, 7.776507174585692163E-16, -6.349999999999999645 ) ) ;
#15 = ORIENTED_EDGE ( 'NONE', *, *, #333, .T. ) ;
#16 = PERSON_AND_ORGANIZATION ( #240, #236 ) ;
#17 = CYLINDRICAL_SURFACE ( 'NONE', #263, 6.349999999999999645 ) ;
#18 = ORIENTED_EDGE ( 'NONE', *, *, #146, .T. ) ;
#19 = APPROVAL_STATUS ( 'not_yet_approved' ) ;
#20 = CIRCLE ( 'NONE', #242, 6.349999999999999645 ) ;
#21 = DIRECTION ( 'NONE',  ( -1.000000000000000000, -0.000000000000000000, -0.000000000000000000 ) ) ;
#22 = CYLINDRICAL_SURFACE ( 'NONE', #195, 6.349999999999999645 ) ;
#23 = PRODUCT_DEFINITION_SHAPE ( 'NONE', 'NONE',  #257 ) ;
#24 =( NAMED_UNIT ( * ) SI_UNIT ( $, .STERADIAN. ) SOLID_ANGLE_UNIT ( ) );
#25 = VECTOR ( 'NONE', #21, 1000.000000000000000 ) ;
#26 = APPROVAL ( #96, 'UNSPECIFIED' ) ;
#27 = DIRECTION ( 'NONE',  ( 0.000000000000000000, 0.000000000000000000, 1.000000000000000000 ) ) ;
#28 =( GEOMETRIC_REPRESENTATION_CONTEXT ( 3 ) GLOBAL_UNCERTAINTY_ASSIGNED_CONTEXT ( ( #132 ) ) GLOBAL_UNIT_ASSIGNED_CONTEXT ( ( #128, #3, #24 ) ) REPRESENTATION_CONTEXT ( 'NONE', 'WORKASPACE' ) );
#29 = MANIFOLD_SOLID_BREP ( 'Ðý×', #246 ) ;
#30 = DIRECTION ( 'NONE',  ( 0.000000000000000000, 0.000000000000000000, -1.000000000000000000 ) ) ;
#31 = LOCAL_TIME ( 9, 49, 53.00000000000000000, #34 ) ;
#32 = ORIENTED_EDGE ( 'NONE', *, *, #36, .F. ) ;
#33 = VERTEX_POINT ( 'NONE', #143 ) ;
#34 = COORDINATED_UNIVERSAL_TIME_OFFSET ( 8, 0, .AHEAD. ) ;
#35 = ADVANCED_FACE ( 'NONE', ( #223 ), #100, .F. ) ;
#36 = EDGE_CURVE ( 'NONE', #241, #73, #226, .T. ) ;
#37 = AXIS2_PLACEMENT_3D ( 'NONE', #156, #72, #262 ) ;
#38 = ORIENTED_EDGE ( 'NONE', *, *, #146, .F. ) ;
#39 = FACE_BOUND ( 'NONE', #209, .T. ) ;
#40 = EDGE_LOOP ( 'NONE', ( #129, #5 ) ) ;
#41 = CALENDAR_DATE ( 2020, 24, 12 ) ;
#42 = DIRECTION ( 'NONE',  ( -1.000000000000000000, -0.000000000000000000, -0.000000000000000000 ) ) ;
#43 = DIRECTION ( 'NONE',  ( -1.000000000000000000, -0.000000000000000000, -0.000000000000000000 ) ) ;
#44 = PERSON_AND_ORGANIZATION ( #240, #236 ) ;
#45 = DIRECTION ( 'NONE',  ( 0.000000000000000000, 0.000000000000000000, 1.000000000000000000 ) ) ;
#46 = VERTEX_POINT ( 'NONE', #52 ) ;
#47 = DATE_AND_TIME ( #118, #135 ) ;
#48 = DIRECTION ( 'NONE',  ( -1.000000000000000000, -0.000000000000000000, -0.000000000000000000 ) ) ;
#49 = EDGE_CURVE ( 'NONE', #46, #137, #10, .T. ) ;
#50 = APPROVAL_ROLE ( '' ) ;
#51 = FACE_OUTER_BOUND ( 'NONE', #140, .T. ) ;
#52 = CARTESIAN_POINT ( 'NONE',  ( 1.500000000000000888, 0.000000000000000000, 6.349999999999999645 ) ) ;
#53 = DIRECTION ( 'NONE',  ( -1.000000000000000000, -0.000000000000000000, -0.000000000000000000 ) ) ;
#54 = AXIS2_PLACEMENT_3D ( 'NONE', #11, #97, #117 ) ;
#55 = DIRECTION ( 'NONE',  ( 1.000000000000000000, 0.000000000000000000, 0.000000000000000000 ) ) ;
#56 = APPROVAL ( #221, 'UNSPECIFIED' ) ;
#57 = ORIENTED_EDGE ( 'NONE', *, *, #299, .F. ) ;
#58 = DIRECTION ( 'NONE',  ( -1.000000000000000000, -0.000000000000000000, -0.000000000000000000 ) ) ;
#59 = CARTESIAN_POINT ( 'NONE',  ( -2.999999999999999556, 7.776507174585692163E-16, -6.349999999999999645 ) ) ;
#60 = CIRCLE ( 'NONE', #147, 6.349999999999999645 ) ;
#61 = CIRCLE ( 'NONE', #192, 6.349999999999999645 ) ;
#62 = CC_DESIGN_PERSON_AND_ORGANIZATION_ASSIGNMENT ( #178, #12, ( #312 ) ) ;
#63 = EDGE_CURVE ( 'NONE', #289, #33, #200, .T. ) ;
#64 = CIRCLE ( 'NONE', #110, 12.69999999999999929 ) ;
#65 = APPROVAL_PERSON_ORGANIZATION ( #276, #56, #50 ) ;
#66 = SHAPE_DEFINITION_REPRESENTATION ( #23, #253 ) ;
#67 = DIRECTION ( 'NONE',  ( 0.000000000000000000, 0.000000000000000000, 1.000000000000000000 ) ) ;
#68 = DIRECTION ( 'NONE',  ( 0.000000000000000000, 0.000000000000000000, 1.000000000000000000 ) ) ;
#69 = ORIENTED_EDGE ( 'NONE', *, *, #49, .F. ) ;
#70 = PERSON_AND_ORGANIZATION ( #240, #236 ) ;
#71 = AXIS2_PLACEMENT_3D ( 'NONE', #92, #90, #197 ) ;
#72 = DIRECTION ( 'NONE',  ( -1.000000000000000000, -0.000000000000000000, -0.000000000000000000 ) ) ;
#73 = VERTEX_POINT ( 'NONE', #248 ) ;
#74 = DIRECTION ( 'NONE',  ( 0.000000000000000000, 0.000000000000000000, 1.000000000000000000 ) ) ;
#75 = CC_DESIGN_DATE_AND_TIME_ASSIGNMENT ( #104, #198, ( #257 ) ) ;
#76 = DIRECTION ( 'NONE',  ( -1.000000000000000000, 0.000000000000000000, -0.000000000000000000 ) ) ;
#77 = CARTESIAN_POINT ( 'NONE',  ( -1.614212418857619014, 0.000000000000000000, 0.000000000000000000 ) ) ;
#78 = CARTESIAN_POINT ( 'NONE',  ( 3.000000000000000888, 7.776507174585692163E-16, -6.349999999999999645 ) ) ;
#79 = CARTESIAN_POINT ( 'NONE',  ( -3.000000000000000000, 0.000000000000000000, 0.000000000000000000 ) ) ;
#80 = EDGE_CURVE ( 'NONE', #326, #313, #124, .T. ) ;
#81 = EDGE_LOOP ( 'NONE', ( #69, #86 ) ) ;
#82 = LINE ( 'NONE', #267, #329 ) ;
#83 = ADVANCED_FACE ( 'NONE', ( #157 ), #220, .F. ) ;
#84 = EDGE_LOOP ( 'NONE', ( #159, #335, #8, #32 ) ) ;
#85 = EDGE_CURVE ( 'NONE', #73, #33, #167, .T. ) ;
#86 = ORIENTED_EDGE ( 'NONE', *, *, #142, .F. ) ;
#87 = CC_DESIGN_PERSON_AND_ORGANIZATION_ASSIGNMENT ( #154, #171, ( #287 ) ) ;
#88 = ORIENTED_EDGE ( 'NONE', *, *, #190, .F. ) ;
#89 = CC_DESIGN_APPROVAL ( #56, ( #312 ) ) ;
#90 = DIRECTION ( 'NONE',  ( -1.000000000000000000, -0.000000000000000000, -0.000000000000000000 ) ) ;
#91 = FACE_OUTER_BOUND ( 'NONE', #116, .T. ) ;
#92 = CARTESIAN_POINT ( 'NONE',  ( -3.000000000000000000, 0.000000000000000000, 0.000000000000000000 ) ) ;
#93 = PERSON_AND_ORGANIZATION ( #240, #236 ) ;
#94 = CARTESIAN_POINT ( 'NONE',  ( -1.614212418857619014, 0.000000000000000000, 0.000000000000000000 ) ) ;
#95 = CARTESIAN_POINT ( 'NONE',  ( 1.500000000000000888, 0.000000000000000000, 0.000000000000000000 ) ) ;
#96 = APPROVAL_STATUS ( 'not_yet_approved' ) ;
#97 = DIRECTION ( 'NONE',  ( 1.000000000000000000, 0.000000000000000000, 0.000000000000000000 ) ) ;
#98 = EDGE_CURVE ( 'NONE', #313, #151, #268, .T. ) ;
#99 = EDGE_CURVE ( 'NONE', #188, #151, #301, .T. ) ;
#100 = PLANE ( 'NONE',  #311 ) ;
#101 = AXIS2_PLACEMENT_3D ( 'NONE', #94, #199, #45 ) ;
#102 = DIRECTION ( 'NONE',  ( -1.000000000000000000, -0.000000000000000000, -0.000000000000000000 ) ) ;
#103 = ORIENTED_EDGE ( 'NONE', *, *, #181, .F. ) ;
#104 = DATE_AND_TIME ( #144, #131 ) ;
#105 = CARTESIAN_POINT ( 'NONE',  ( -1.614212418857619014, 0.000000000000000000, 0.000000000000000000 ) ) ;
#106 = CARTESIAN_POINT ( 'NONE',  ( 0.000000000000000000, 0.000000000000000000, 0.000000000000000000 ) ) ;
#107 = ORIENTED_EDGE ( 'NONE', *, *, #274, .T. ) ;
#108 = APPLICATION_CONTEXT ( 'configuration controlled 3d designs of mechanical parts and assemblies' ) ;
#109 = ORIENTED_EDGE ( 'NONE', *, *, #113, .F. ) ;
#110 = AXIS2_PLACEMENT_3D ( 'NONE', #176, #295, #283 ) ;
#111 = ORIENTED_EDGE ( 'NONE', *, *, #80, .T. ) ;
#112 = AXIS2_PLACEMENT_3D ( 'NONE', #133, #237, #160 ) ;
#113 = EDGE_CURVE ( 'NONE', #123, #194, #20, .T. ) ;
#114 = CC_DESIGN_PERSON_AND_ORGANIZATION_ASSIGNMENT ( #44, #254, ( #257 ) ) ;
#115 = ORIENTED_EDGE ( 'NONE', *, *, #274, .F. ) ;
#116 = EDGE_LOOP ( 'NONE', ( #191, #38 ) ) ;
#117 = DIRECTION ( 'NONE',  ( 0.000000000000000000, 0.000000000000000000, -1.000000000000000000 ) ) ;
#118 = CALENDAR_DATE ( 2020, 24, 12 ) ;
#119 = CARTESIAN_POINT ( 'NONE',  ( 3.000000000000000000, 0.000000000000000000, 12.69999999999999929 ) ) ;
#120 = CARTESIAN_POINT ( 'NONE',  ( -1.614212418857619014, 7.776507174585692163E-16, -6.349999999999999645 ) ) ;
#121 = PERSON_AND_ORGANIZATION_ROLE ( 'creator' ) ;
#122 = FACE_OUTER_BOUND ( 'NONE', #244, .T. ) ;
#123 = VERTEX_POINT ( 'NONE', #225 ) ;
#124 = LINE ( 'NONE', #120, #278 ) ;
#125 = LOCAL_TIME ( 9, 49, 53.00000000000000000, #324 ) ;
#126 = CARTESIAN_POINT ( 'NONE',  ( -1.500000000000000444, 0.000000000000000000, 0.000000000000000000 ) ) ;
#127 = ORIENTED_EDGE ( 'NONE', *, *, #181, .T. ) ;
#128 =( LENGTH_UNIT ( ) NAMED_UNIT ( * ) SI_UNIT ( .MILLI., .METRE. ) );
#129 = ORIENTED_EDGE ( 'NONE', *, *, #333, .F. ) ;
#130 = DIRECTION ( 'NONE',  ( 1.000000000000000000, 0.000000000000000000, 0.000000000000000000 ) ) ;
#131 = LOCAL_TIME ( 9, 49, 53.00000000000000000, #304 ) ;
#132 = UNCERTAINTY_MEASURE_WITH_UNIT (LENGTH_MEASURE( 1.000000000000000082E-05 ), #128, 'distance_accuracy_value', 'NONE');
#133 = CARTESIAN_POINT ( 'NONE',  ( -1.614212418857619014, 0.000000000000000000, 0.000000000000000000 ) ) ;
#134 = AXIS2_PLACEMENT_3D ( 'NONE', #9, #148, #217 ) ;
#135 = LOCAL_TIME ( 9, 49, 53.00000000000000000, #282 ) ;
#136 = EDGE_LOOP ( 'NONE', ( #88, #212, #2, #103 ) ) ;
#137 = VERTEX_POINT ( 'NONE', #14 ) ;
#138 = CIRCLE ( 'NONE', #37, 6.349999999999999645 ) ;
#139 = ORIENTED_EDGE ( 'NONE', *, *, #98, .F. ) ;
#140 = EDGE_LOOP ( 'NONE', ( #213, #169, #185, #193 ) ) ;
#141 = DIRECTION ( 'NONE',  ( -0.000000000000000000, 0.000000000000000000, 1.000000000000000000 ) ) ;
#142 = EDGE_CURVE ( 'NONE', #137, #46, #300, .T. ) ;
#143 = CARTESIAN_POINT ( 'NONE',  ( -3.000000000000000000, 1.555301434917138433E-15, -12.69999999999999929 ) ) ;
#144 = CALENDAR_DATE ( 2020, 24, 12 ) ;
#145 = CARTESIAN_POINT ( 'NONE',  ( 3.000000000000000000, 12.69999999999999929, 0.000000000000000000 ) ) ;
#146 = EDGE_CURVE ( 'NONE', #289, #241, #64, .T. ) ;
#147 = AXIS2_PLACEMENT_3D ( 'NONE', #288, #55, #264 ) ;
#148 = DIRECTION ( 'NONE',  ( 1.000000000000000000, 0.000000000000000000, 0.000000000000000000 ) ) ;
#149 = DIRECTION ( 'NONE',  ( 0.000000000000000000, 0.000000000000000000, 1.000000000000000000 ) ) ;
#150 = CARTESIAN_POINT ( 'NONE',  ( 3.000000000000000000, 0.000000000000000000, 0.000000000000000000 ) ) ;
#151 = VERTEX_POINT ( 'NONE', #298 ) ;
#152 = APPROVAL_DATE_TIME ( #175, #56 ) ;
#153 = PRODUCT ( 'QB-CTZQWP-12.7-894-M', 'QB-CTZQWP-12.7-894-M', '', ( #231 ) ) ;
#154 = PERSON_AND_ORGANIZATION ( #240, #236 ) ;
#155 = APPROVAL ( #19, 'UNSPECIFIED' ) ;
#156 = CARTESIAN_POINT ( 'NONE',  ( 3.000000000000000888, 0.000000000000000000, 0.000000000000000000 ) ) ;
#157 = FACE_OUTER_BOUND ( 'NONE', #40, .T. ) ;
#158 = CC_DESIGN_APPROVAL ( #155, ( #257 ) ) ;
#159 = ORIENTED_EDGE ( 'NONE', *, *, #269, .T. ) ;
#160 = DIRECTION ( 'NONE',  ( 0.000000000000000000, 0.000000000000000000, 1.000000000000000000 ) ) ;
#161 = APPLICATION_CONTEXT ( 'configuration controlled 3d designs of mechanical parts and assemblies' ) ;
#162 = ADVANCED_FACE ( 'NONE', ( #51 ), #228, .F. ) ;
#163 = CYLINDRICAL_SURFACE ( 'NONE', #112, 6.349999999999999645 ) ;
#164 = ORIENTED_EDGE ( 'NONE', *, *, #113, .T. ) ;
#165 = AXIS2_PLACEMENT_3D ( 'NONE', #179, #285, #68 ) ;
#166 = ORIENTED_EDGE ( 'NONE', *, *, #99, .F. ) ;
#167 = CIRCLE ( 'NONE', #71, 12.69999999999999929 ) ;
#168 = ADVANCED_FACE ( 'NONE', ( #328 ), #17, .F. ) ;
#169 = ORIENTED_EDGE ( 'NONE', *, *, #318, .T. ) ;
#170 = CARTESIAN_POINT ( 'NONE',  ( -1.614212418857619014, 0.000000000000000000, 0.000000000000000000 ) ) ;
#171 = PERSON_AND_ORGANIZATION_ROLE ( 'classification_officer' ) ;
#172 = FACE_BOUND ( 'NONE', #309, .T. ) ;
#173 = CIRCLE ( 'NONE', #229, 6.349999999999999645 ) ;
#174 = CARTESIAN_POINT ( 'NONE',  ( 3.000000000000000888, 0.000000000000000000, 0.000000000000000000 ) ) ;
#175 = DATE_AND_TIME ( #41, #4 ) ;
#176 = CARTESIAN_POINT ( 'NONE',  ( 3.000000000000000000, 0.000000000000000000, 0.000000000000000000 ) ) ;
#177 = DIRECTION ( 'NONE',  ( -1.000000000000000000, -0.000000000000000000, -0.000000000000000000 ) ) ;
#178 = PERSON_AND_ORGANIZATION ( #240, #236 ) ;
#179 = CARTESIAN_POINT ( 'NONE',  ( -1.614212418857619014, 0.000000000000000000, 0.000000000000000000 ) ) ;
#180 = DIRECTION ( 'NONE',  ( -1.000000000000000000, -0.000000000000000000, -0.000000000000000000 ) ) ;
#181 = EDGE_CURVE ( 'NONE', #123, #46, #320, .T. ) ;
#182 = ADVANCED_FACE ( 'NONE', ( #202 ), #218, .T. ) ;
#183 = APPROVAL_PERSON_ORGANIZATION ( #224, #26, #261 ) ;
#184 = DIRECTION ( 'NONE',  ( 0.000000000000000000, 0.000000000000000000, 1.000000000000000000 ) ) ;
#185 = ORIENTED_EDGE ( 'NONE', *, *, #99, .T. ) ;
#186 = DIRECTION ( 'NONE',  ( -1.000000000000000000, -0.000000000000000000, -0.000000000000000000 ) ) ;
#187 = DESIGN_CONTEXT ( 'detailed design', #161, 'design' ) ;
#188 = VERTEX_POINT ( 'NONE', #325 ) ;
#189 = CARTESIAN_POINT ( 'NONE',  ( -2.999999999999999556, 0.000000000000000000, 0.000000000000000000 ) ) ;
#190 = EDGE_CURVE ( 'NONE', #194, #123, #138, .T. ) ;
#191 = ORIENTED_EDGE ( 'NONE', *, *, #269, .F. ) ;
#192 = AXIS2_PLACEMENT_3D ( 'NONE', #189, #186, #27 ) ;
#193 = ORIENTED_EDGE ( 'NONE', *, *, #299, .T. ) ;
#194 = VERTEX_POINT ( 'NONE', #78 ) ;
#195 = AXIS2_PLACEMENT_3D ( 'NONE', #170, #42, #232 ) ;
#196 = CALENDAR_DATE ( 2020, 24, 12 ) ;
#197 = DIRECTION ( 'NONE',  ( 0.000000000000000000, 0.000000000000000000, 1.000000000000000000 ) ) ;
#198 = DATE_TIME_ROLE ( 'creation_date' ) ;
#199 = DIRECTION ( 'NONE',  ( -1.000000000000000000, -0.000000000000000000, -0.000000000000000000 ) ) ;
#200 = LINE ( 'NONE', #275, #25 ) ;
#201 = APPROVAL_ROLE ( '' ) ;
#202 = FACE_OUTER_BOUND ( 'NONE', #84, .T. ) ;
#203 = PERSON_AND_ORGANIZATION_ROLE ( 'design_owner' ) ;
#204 = CARTESIAN_POINT ( 'NONE',  ( 1.500000000000000888, 0.000000000000000000, 0.000000000000000000 ) ) ;
#205 = ADVANCED_FACE ( 'NONE', ( #122 ), #22, .F. ) ;
#206 = CARTESIAN_POINT ( 'NONE',  ( -1.614212418857619014, 0.000000000000000000, 6.349999999999999645 ) ) ;
#207 = ADVANCED_FACE ( 'NONE', ( #91, #39 ), #307, .F. ) ;
#208 = DIRECTION ( 'NONE',  ( 0.000000000000000000, 0.000000000000000000, 1.000000000000000000 ) ) ;
#209 = EDGE_LOOP ( 'NONE', ( #164, #310 ) ) ;
#210 = CARTESIAN_POINT ( 'NONE',  ( 3.000000000000000000, 1.555301434917138433E-15, -12.69999999999999929 ) ) ;
#211 = CC_DESIGN_PERSON_AND_ORGANIZATION_ASSIGNMENT ( #70, #203, ( #153 ) ) ;
#212 = ORIENTED_EDGE ( 'NONE', *, *, #314, .T. ) ;
#213 = ORIENTED_EDGE ( 'NONE', *, *, #80, .F. ) ;
#214 = DATE_AND_TIME ( #196, #31 ) ;
#215 = APPROVAL_DATE_TIME ( #214, #26 ) ;
#216 = AXIS2_PLACEMENT_3D ( 'NONE', #296, #43, #252 ) ;
#217 = DIRECTION ( 'NONE',  ( 0.000000000000000000, 0.000000000000000000, -1.000000000000000000 ) ) ;
#218 = CYLINDRICAL_SURFACE ( 'NONE', #165, 12.69999999999999929 ) ;
#219 = CC_DESIGN_APPROVAL ( #26, ( #287 ) ) ;
#220 = PLANE ( 'NONE',  #134 ) ;
#221 = APPROVAL_STATUS ( 'not_yet_approved' ) ;
#222 = FACE_OUTER_BOUND ( 'NONE', #234, .T. ) ;
#223 = FACE_OUTER_BOUND ( 'NONE', #81, .T. ) ;
#224 = PERSON_AND_ORGANIZATION ( #240, #236 ) ;
#225 = CARTESIAN_POINT ( 'NONE',  ( 3.000000000000000888, 0.000000000000000000, 6.349999999999999645 ) ) ;
#226 = LINE ( 'NONE', #260, #334 ) ;
#227 = DIRECTION ( 'NONE',  ( 1.000000000000000000, 0.000000000000000000, 0.000000000000000000 ) ) ;
#228 = CYLINDRICAL_SURFACE ( 'NONE', #308, 6.349999999999999645 ) ;
#229 = AXIS2_PLACEMENT_3D ( 'NONE', #126, #130, #30 ) ;
#230 = CARTESIAN_POINT ( 'NONE',  ( -1.614212418857619014, 0.000000000000000000, 6.349999999999999645 ) ) ;
#231 = MECHANICAL_CONTEXT ( 'NONE', #108, 'mechanical' ) ;
#232 = DIRECTION ( 'NONE',  ( 0.000000000000000000, 0.000000000000000000, 1.000000000000000000 ) ) ;
#233 = ADVANCED_FACE ( 'NONE', ( #172, #245 ), #250, .F. ) ;
#234 = EDGE_LOOP ( 'NONE', ( #323, #18, #319, #115 ) ) ;
#235 = DIRECTION ( 'NONE',  ( -1.000000000000000000, -0.000000000000000000, -0.000000000000000000 ) ) ;
#236 = ORGANIZATION ( 'UNSPECIFIED', 'UNSPECIFIED', '' ) ;
#237 = DIRECTION ( 'NONE',  ( -1.000000000000000000, -0.000000000000000000, -0.000000000000000000 ) ) ;
#238 = CC_DESIGN_DATE_AND_TIME_ASSIGNMENT ( #47, #258, ( #287 ) ) ;
#239 = AXIS2_PLACEMENT_3D ( 'NONE', #79, #58, #208 ) ;
#240 = PERSON ( 'UNSPECIFIED', 'UNSPECIFIED', 'UNSPECIFIED', ('UNSPECIFIED'), ('UNSPECIFIED'), ('UNSPECIFIED') ) ;
#241 = VERTEX_POINT ( 'NONE', #119 ) ;
#242 = AXIS2_PLACEMENT_3D ( 'NONE', #174, #330, #259 ) ;
#243 = ORIENTED_EDGE ( 'NONE', *, *, #314, .F. ) ;
#244 = EDGE_LOOP ( 'NONE', ( #243, #109, #127, #316 ) ) ;
#245 = FACE_OUTER_BOUND ( 'NONE', #272, .T. ) ;
#246 = CLOSED_SHELL ( 'NONE', ( #182, #168, #292, #35, #205, #162, #233, #247, #207, #83 ) ) ;
#247 = ADVANCED_FACE ( 'NONE', ( #222 ), #322, .T. ) ;
#248 = CARTESIAN_POINT ( 'NONE',  ( -3.000000000000000000, 0.000000000000000000, 12.69999999999999929 ) ) ;
#249 = APPROVAL_DATE_TIME ( #284, #155 ) ;
#250 = PLANE ( 'NONE',  #54 ) ;
#251 = CC_DESIGN_SECURITY_CLASSIFICATION ( #287, ( #312 ) ) ;
#252 = DIRECTION ( 'NONE',  ( 0.000000000000000000, 0.000000000000000000, 1.000000000000000000 ) ) ;
#253 = ADVANCED_BREP_SHAPE_REPRESENTATION ( 'QB-CTZQWP-12.7-894-M', ( #29, #273 ), #28 ) ;
#254 = PERSON_AND_ORGANIZATION_ROLE ( 'creator' ) ;
#255 = DIRECTION ( 'NONE',  ( -1.000000000000000000, 0.000000000000000000, -0.000000000000000000 ) ) ;
#256 = EDGE_LOOP ( 'NONE', ( #15, #111, #293, #166 ) ) ;
#257 = PRODUCT_DEFINITION ( 'UNKNOWN', '', #312, #187 ) ;
#258 = DATE_TIME_ROLE ( 'classification_date' ) ;
#259 = DIRECTION ( 'NONE',  ( 0.000000000000000000, 0.000000000000000000, 1.000000000000000000 ) ) ;
#260 = CARTESIAN_POINT ( 'NONE',  ( -1.614212418857619014, 0.000000000000000000, 12.69999999999999929 ) ) ;
#261 = APPROVAL_ROLE ( '' ) ;
#262 = DIRECTION ( 'NONE',  ( 0.000000000000000000, 0.000000000000000000, 1.000000000000000000 ) ) ;
#263 = AXIS2_PLACEMENT_3D ( 'NONE', #105, #102, #277 ) ;
#264 = DIRECTION ( 'NONE',  ( 0.000000000000000000, 0.000000000000000000, -1.000000000000000000 ) ) ;
#265 = VECTOR ( 'NONE', #281, 1000.000000000000000 ) ;
#266 = FACE_OUTER_BOUND ( 'NONE', #136, .T. ) ;
#267 = CARTESIAN_POINT ( 'NONE',  ( -1.614212418857619014, 7.776507174585692163E-16, -6.349999999999999645 ) ) ;
#268 = CIRCLE ( 'NONE', #216, 6.349999999999999645 ) ;
#269 = EDGE_CURVE ( 'NONE', #241, #289, #1, .T. ) ;
#270 = AXIS2_PLACEMENT_3D ( 'NONE', #145, #255, #141 ) ;
#271 = PRODUCT_RELATED_PRODUCT_CATEGORY ( 'detail', '', ( #153 ) ) ;
#272 = EDGE_LOOP ( 'NONE', ( #7, #107 ) ) ;
#273 = AXIS2_PLACEMENT_3D ( 'NONE', #106, #149, #227 ) ;
#274 = EDGE_CURVE ( 'NONE', #33, #73, #291, .T. ) ;
#275 = CARTESIAN_POINT ( 'NONE',  ( -1.614212418857619014, 1.555301434917138433E-15, -12.69999999999999929 ) ) ;
#276 = PERSON_AND_ORGANIZATION ( #240, #236 ) ;
#277 = DIRECTION ( 'NONE',  ( 0.000000000000000000, 0.000000000000000000, 1.000000000000000000 ) ) ;
#278 = VECTOR ( 'NONE', #177, 1000.000000000000000 ) ;
#279 = DIRECTION ( 'NONE',  ( 0.000000000000000000, 0.000000000000000000, 1.000000000000000000 ) ) ;
#280 = APPROVAL_PERSON_ORGANIZATION ( #16, #155, #201 ) ;
#281 = DIRECTION ( 'NONE',  ( -1.000000000000000000, -0.000000000000000000, -0.000000000000000000 ) ) ;
#282 = COORDINATED_UNIVERSAL_TIME_OFFSET ( 8, 0, .AHEAD. ) ;
#283 = DIRECTION ( 'NONE',  ( 0.000000000000000000, 0.000000000000000000, 1.000000000000000000 ) ) ;
#284 = DATE_AND_TIME ( #321, #125 ) ;
#285 = DIRECTION ( 'NONE',  ( -1.000000000000000000, -0.000000000000000000, -0.000000000000000000 ) ) ;
#286 = CARTESIAN_POINT ( 'NONE',  ( 1.500000000000000444, 6.349999999999999645, 0.000000000000000000 ) ) ;
#287 = SECURITY_CLASSIFICATION ( '', '', #297 ) ;
#288 = CARTESIAN_POINT ( 'NONE',  ( -1.500000000000000444, 0.000000000000000000, 0.000000000000000000 ) ) ;
#289 = VERTEX_POINT ( 'NONE', #210 ) ;
#290 = CARTESIAN_POINT ( 'NONE',  ( -1.500000000000000444, 7.776507174585692163E-16, -6.349999999999999645 ) ) ;
#291 = CIRCLE ( 'NONE', #239, 12.69999999999999929 ) ;
#292 = ADVANCED_FACE ( 'NONE', ( #266 ), #163, .F. ) ;
#293 = ORIENTED_EDGE ( 'NONE', *, *, #98, .T. ) ;
#294 = VECTOR ( 'NONE', #305, 1000.000000000000000 ) ;
#295 = DIRECTION ( 'NONE',  ( -1.000000000000000000, -0.000000000000000000, -0.000000000000000000 ) ) ;
#296 = CARTESIAN_POINT ( 'NONE',  ( -2.999999999999999556, 0.000000000000000000, 0.000000000000000000 ) ) ;
#297 = SECURITY_CLASSIFICATION_LEVEL ( 'unclassified' ) ;
#298 = CARTESIAN_POINT ( 'NONE',  ( -2.999999999999999556, 0.000000000000000000, 6.349999999999999645 ) ) ;
#299 = EDGE_CURVE ( 'NONE', #151, #313, #61, .T. ) ;
#300 = CIRCLE ( 'NONE', #317, 6.349999999999999645 ) ;
#301 = LINE ( 'NONE', #230, #265 ) ;
#302 = COORDINATED_UNIVERSAL_TIME_OFFSET ( 8, 0, .AHEAD. ) ;
#303 = DIRECTION ( 'NONE',  ( -1.000000000000000000, -0.000000000000000000, -0.000000000000000000 ) ) ;
#304 = COORDINATED_UNIVERSAL_TIME_OFFSET ( 8, 0, .AHEAD. ) ;
#305 = DIRECTION ( 'NONE',  ( -1.000000000000000000, -0.000000000000000000, -0.000000000000000000 ) ) ;
#306 = DIRECTION ( 'NONE',  ( -0.000000000000000000, 0.000000000000000000, 1.000000000000000000 ) ) ;
#307 = PLANE ( 'NONE',  #270 ) ;
#308 = AXIS2_PLACEMENT_3D ( 'NONE', #77, #332, #279 ) ;
#309 = EDGE_LOOP ( 'NONE', ( #57, #139 ) ) ;
#310 = ORIENTED_EDGE ( 'NONE', *, *, #190, .T. ) ;
#311 = AXIS2_PLACEMENT_3D ( 'NONE', #286, #76, #306 ) ;
#312 = PRODUCT_DEFINITION_FORMATION_WITH_SPECIFIED_SOURCE ( 'ANY', '', #153, .NOT_KNOWN. ) ;
#313 = VERTEX_POINT ( 'NONE', #59 ) ;
#314 = EDGE_CURVE ( 'NONE', #194, #137, #82, .T. ) ;
#315 = CC_DESIGN_PERSON_AND_ORGANIZATION_ASSIGNMENT ( #93, #121, ( #312 ) ) ;
#316 = ORIENTED_EDGE ( 'NONE', *, *, #49, .T. ) ;
#317 = AXIS2_PLACEMENT_3D ( 'NONE', #204, #48, #74 ) ;
#318 = EDGE_CURVE ( 'NONE', #326, #188, #173, .T. ) ;
#319 = ORIENTED_EDGE ( 'NONE', *, *, #36, .T. ) ;
#320 = LINE ( 'NONE', #206, #294 ) ;
#321 = CALENDAR_DATE ( 2020, 24, 12 ) ;
#322 = CYLINDRICAL_SURFACE ( 'NONE', #101, 12.69999999999999929 ) ;
#323 = ORIENTED_EDGE ( 'NONE', *, *, #63, .F. ) ;
#324 = COORDINATED_UNIVERSAL_TIME_OFFSET ( 8, 0, .AHEAD. ) ;
#325 = CARTESIAN_POINT ( 'NONE',  ( -1.500000000000000444, 0.000000000000000000, 6.349999999999999645 ) ) ;
#326 = VERTEX_POINT ( 'NONE', #290 ) ;
#327 = APPLICATION_PROTOCOL_DEFINITION ( 'international standard', 'config_control_design', 1994, #108 ) ;
#328 = FACE_OUTER_BOUND ( 'NONE', #256, .T. ) ;
#329 = VECTOR ( 'NONE', #235, 1000.000000000000000 ) ;
#330 = DIRECTION ( 'NONE',  ( -1.000000000000000000, -0.000000000000000000, -0.000000000000000000 ) ) ;
#331 = APPLICATION_PROTOCOL_DEFINITION ( 'international standard', 'config_control_design', 1994, #161 ) ;
#332 = DIRECTION ( 'NONE',  ( -1.000000000000000000, -0.000000000000000000, -0.000000000000000000 ) ) ;
#333 = EDGE_CURVE ( 'NONE', #188, #326, #60, .T. ) ;
#334 = VECTOR ( 'NONE', #180, 1000.000000000000000 ) ;
#335 = ORIENTED_EDGE ( 'NONE', *, *, #63, .T. ) ;
ENDSEC;
END-ISO-10303-21;
